The White Stripes – Seven Nation Army

Standard tuning
(listen for correct timing)

Main tune
 Verse
 |------------------|
 |------------------|
 |------------------|
 |------------------|
 |-7--7-10-7-5-3--2-|
 |------------------| X 12
Post Chorus
 |---------------------------------|
 |---------------------------------|
 |---------------------------------|
 |-5-5-5-5-5-5-5-5-7-7-7-7-7-7-7-7-|
 |-5-5-5-5-5-5-5-5-7-7-7-7-7-7-7-7-|
 |-3-3-3-3-3-3-3-3-5-5-5-5-5-5-5-5-|
Chorus (2x)
 |------------------|
 |------------------|
 |-9--9-12-9-7-5--4-|
 |-9--9-12-9-7-5--4-|
 |-7--7-10-7-5-3--2-|
 |------------------|

|---------------------|
|---------------------|
|-9--9-12-9-7-5-7-5-4-|
|-9--9-12-9-7-5-7-5-4-|
|-7--7-10-7-5-3-5-3-2-|
|---------------------|

Post Chorus x1

Verse

Post Chorus x1

Chorus (played with solo)

Solo

|----------------------------------------------|
|----------------------------------------------|
|-9~-------12~-11~----9--9-12-9-7-12-14-12-11~-|
|----------------------------------------------|
|----------------------------------------------|
|----------------------------------------------|

 

|-------------------------------------------------|
|-------------------------------------------------|
|-9--9-12-9-7-12~-11~----9--9-12-9-7-12-14-12-11~-|
|-------------------------------------------------|
|-------------------------------------------------|
|-------------------------------------------------|

 

|-12--12-15-12-10-15~-14~----12--12-15-12-10-15-17-15-14-|
|--------------------------------------------------------|
|--------------------------------------------------------|
|--------------------------------------------------------|
|--------------------------------------------------------|
|--------------------------------------------------------|

 

|-12--12-15-12-10-15^-14~----12--12-14-12-12-14-12--------|
|--------------------------------------------------13-12~-|
|---------------------------------------------------------|
|---------------------------------------------------------|
|---------------------------------------------------------|
|---------------------------------------------------------|

Post Chorus x1

Verse

Post Chorus x1

Chorus

End on

|---------|
|---------|
|-9-----1-|
|-9-----2-|
|-7-----2-|
|---------|

Comments are closed.